ISO-10303-21;
HEADER;
FILE_DESCRIPTION (( 'STEP AP214' ),
    '1' );
FILE_NAME ('BT1KF505140 FULLVAC.STEP',
    '2019-11-08T15:12:24',
    ( '' ),
    ( '' ),
    'SwSTEP 2.0',
    'SolidWorks 2017',
    '' );
FILE_SCHEMA (( 'AUTOMOTIVE_DESIGN' ));
ENDSEC;

DATA;
#1 = DIRECTION ( 'NONE',  ( 0.0000000000000000000, 0.0000000000000000000, 1.000000000000000000 ) ) ;
#2 = FACE_OUTER_BOUND ( 'NONE', #124, .T. ) ;
#3 = CIRCLE ( 'NONE', #218, 37.50000000000000000 ) ;
#4 = DIRECTION ( 'NONE',  ( 0.0000000000000000000, 0.0000000000000000000, -1.000000000000000000 ) ) ;
#5 = DIRECTION ( 'NONE',  ( 1.000000000000000000, -0.0000000000000000000, -0.0000000000000000000 ) ) ;
#6 = EDGE_LOOP ( 'NONE', ( #130 ) ) ;
#7 = AXIS2_PLACEMENT_3D ( 'NONE', #165, #40, #144 ) ;
#8 = CARTESIAN_POINT ( 'NONE',  ( -2.616336506010520100, 0.0000000000000000000, 0.0000000000000000000 ) ) ;
#9 = CARTESIAN_POINT ( 'NONE',  ( -2.540000000000000000, 0.0000000000000000000, 0.0000000000000000000 ) ) ;
#10 = PRODUCT_DEFINITION ( 'UNKNOWN', '', #139, #183 ) ;
#11 = FACE_OUTER_BOUND ( 'NONE', #112, .T. ) ;
#12 = MECHANICAL_DESIGN_GEOMETRIC_PRESENTATION_REPRESENTATION (  '', ( #194 ), #30 ) ;
#13 = FACE_BOUND ( 'NONE', #188, .T. ) ;
#14 = ORIENTED_EDGE ( 'NONE', *, *, #234, .F. ) ;
#15 = DIRECTION ( 'NONE',  ( 1.000000000000000000, 0.0000000000000000000, 0.0000000000000000000 ) ) ;
#16 = DIRECTION ( 'NONE',  ( 0.0000000000000000000, 0.0000000000000000000, 1.000000000000000000 ) ) ;
#17 = ORIENTED_EDGE ( 'NONE', *, *, #255, .F. ) ;
#18 =( LENGTH_UNIT ( ) NAMED_UNIT ( * ) SI_UNIT ( .MILLI., .METRE. ) );
#19 = EDGE_LOOP ( 'NONE', ( #107 ) ) ;
#20 = ADVANCED_FACE ( 'NONE', ( #178, #103 ), #228, .F. ) ;
#21 = AXIS2_PLACEMENT_3D ( 'NONE', #145, #221, #47 ) ;
#22 = DIRECTION ( 'NONE',  ( -1.000000000000000000, 0.0000000000000000000, 0.0000000000000000000 ) ) ;
#23 = AXIS2_PLACEMENT_3D ( 'NONE', #239, #189, #87 ) ;
#24 = DIRECTION ( 'NONE',  ( -1.000000000000000000, 0.0000000000000000000, 0.0000000000000000000 ) ) ;
#25 = DIRECTION ( 'NONE',  ( 0.0000000000000000000, 0.0000000000000000000, -1.000000000000000000 ) ) ;
#26 = DIRECTION ( 'NONE',  ( 0.0000000000000000000, 0.0000000000000000000, -1.000000000000000000 ) ) ;
#27 = DIRECTION ( 'NONE',  ( 0.0000000000000000000, 0.0000000000000000000, 1.000000000000000000 ) ) ;
#28 = VERTEX_POINT ( 'NONE', #246 ) ;
#29 = CARTESIAN_POINT ( 'NONE',  ( -3.099299419155041600, 74.25881904510259800, -37.12940952255129900 ) ) ;
#30 =( GEOMETRIC_REPRESENTATION_CONTEXT ( 3 ) GLOBAL_UNCERTAINTY_ASSIGNED_CONTEXT ( ( #84 ) ) GLOBAL_UNIT_ASSIGNED_CONTEXT ( ( #18, #159, #180 ) ) REPRESENTATION_CONTEXT ( 'NONE', 'WORKASPACE' ) );
#31 =( GEOMETRIC_REPRESENTATION_CONTEXT ( 3 ) GLOBAL_UNCERTAINTY_ASSIGNED_CONTEXT ( ( #227 ) ) GLOBAL_UNIT_ASSIGNED_CONTEXT ( ( #80, #37, #55 ) ) REPRESENTATION_CONTEXT ( 'NONE', 'WORKASPACE' ) );
#32 = VERTEX_POINT ( 'NONE', #114 ) ;
#33 = COLOUR_RGB ( '',0.7450980392156862900, 0.7450980392156862900, 0.7450980392156862900 ) ;
#34 = CARTESIAN_POINT ( 'NONE',  ( -2.540000000000000000, 0.0000000000000000000, 0.0000000000000000000 ) ) ;
#35 = CARTESIAN_POINT ( 'NONE',  ( -3.038388356863338700, -74.71346540353367500, 37.35673270176683800 ) ) ;
#36 = MANIFOLD_SOLID_BREP ( '\X2\5BE69AD4\X0\1', #110 ) ;
#37 =( NAMED_UNIT ( * ) PLANE_ANGLE_UNIT ( ) SI_UNIT ( $, .RADIAN. ) );
#38 = EDGE_CURVE ( 'NONE', #49, #49, #3, .T. ) ;
#39 = AXIS2_PLACEMENT_3D ( 'NONE', #45, #24, #166 ) ;
#40 = DIRECTION ( 'NONE',  ( -1.000000000000000000, 0.0000000000000000000, 0.0000000000000000000 ) ) ;
#41 = CIRCLE ( 'NONE', #92, 25.39999999999999900 ) ;
#42 = AXIS2_PLACEMENT_3D ( 'NONE', #232, #16, #15 ) ;
#43 = ORIENTED_EDGE ( 'NONE', *, *, #122, .T. ) ;
#44 = DIRECTION ( 'NONE',  ( 1.000000000000000000, 0.0000000000000000000, -0.0000000000000000000 ) ) ;
#45 = CARTESIAN_POINT ( 'NONE',  ( 0.0000000000000000000, 0.0000000000000000000, 0.0000000000000000000 ) ) ;
#46 = COLOUR_RGB ( '',0.7450980392156862900, 0.7450980392156862900, 0.7450980392156862900 ) ;
#47 = DIRECTION ( 'NONE',  ( 0.0000000000000000000, 0.0000000000000000000, -1.000000000000000000 ) ) ;
#48 = CARTESIAN_POINT ( 'NONE',  ( -2.616336506010520100, -75.00000000000000000, -37.50000000000000000 ) ) ;
#49 = VERTEX_POINT ( 'NONE', #95 ) ;
#50 = CARTESIAN_POINT ( 'NONE',  ( -3.038388356863338700, 74.71346540353367500, 37.35673270176683800 ) ) ;
#51 = UNCERTAINTY_MEASURE_WITH_UNIT (LENGTH_MEASURE( 1.000000000000000100E-005 ), #155, 'distance_accuracy_value', 'NONE');
#52 = ORIENTED_EDGE ( 'NONE', *, *, #243, .F. ) ;
#53 = CARTESIAN_POINT ( 'NONE',  ( -3.099299419179194700, 37.12940952255777200, 0.0000000000000000000 ) ) ;
#54 = CARTESIAN_POINT ( 'NONE',  ( -2.851678778707473800, 75.00000000000000000, 37.50000000000000000 ) ) ;
#55 =( NAMED_UNIT ( * ) SI_UNIT ( $, .STERADIAN. ) SOLID_ANGLE_UNIT ( ) );
#56 = AXIS2_PLACEMENT_3D ( 'NONE', #68, #202, #26 ) ;
#57 = EDGE_LOOP ( 'NONE', ( #66 ) ) ;
#58 = APPLICATION_CONTEXT ( 'automotive_design' ) ;
#59 = PRODUCT_RELATED_PRODUCT_CATEGORY ( 'part', '', ( #254 ) ) ;
#60 = APPLICATION_PROTOCOL_DEFINITION ( 'draft international standard', 'automotive_design', 1998, #58 ) ;
#61 = VERTEX_POINT ( 'NONE', #247 ) ;
#62 = FACE_OUTER_BOUND ( 'NONE', #179, .T. ) ;
#63 = SURFACE_STYLE_USAGE ( .BOTH. , #236 ) ;
#64 = PRESENTATION_STYLE_ASSIGNMENT (( #158 ) ) ;
#65 = FACE_OUTER_BOUND ( 'NONE', #225, .T. ) ;
#66 = ORIENTED_EDGE ( 'NONE', *, *, #243, .T. ) ;
#67 = ADVANCED_FACE ( 'NONE', ( #121, #134 ), #219, .T. ) ;
#68 = CARTESIAN_POINT ( 'NONE',  ( 0.0000000000000000000, -1.961685981978219900E-015, 7.894919286223339900E-016 ) ) ;
#69 = CARTESIAN_POINT ( 'NONE',  ( -3.038388356863339200, 0.0000000000000000000, 37.35673270176684500 ) ) ;
#70 = FACE_OUTER_BOUND ( 'NONE', #154, .T. ) ;
#71 = ORIENTED_EDGE ( 'NONE', *, *, #38, .F. ) ;
#72 =( NAMED_UNIT ( * ) SI_UNIT ( $, .STERADIAN. ) SOLID_ANGLE_UNIT ( ) );
#73 = CARTESIAN_POINT ( 'NONE',  ( -6.242185228416580000, 0.0000000000000000000, 0.0000000000000000000 ) ) ;
#74 = DIRECTION ( 'NONE',  ( -1.000000000000000000, 0.0000000000000000000, 0.0000000000000000000 ) ) ;
#75 = AXIS2_PLACEMENT_3D ( 'NONE', #187, #105, #123 ) ;
#76 = DIRECTION ( 'NONE',  ( 0.0000000000000000000, 0.0000000000000000000, 1.000000000000000000 ) ) ;
#77 = AXIS2_PLACEMENT_3D ( 'NONE', #8, #191, #27 ) ;
#78 = APPLICATION_CONTEXT ( 'automotive_design' ) ;
#79 = PRODUCT_CONTEXT ( 'NONE', #78, 'mechanical' ) ;
#80 =( LENGTH_UNIT ( ) NAMED_UNIT ( * ) SI_UNIT ( .MILLI., .METRE. ) );
#81 = ADVANCED_FACE ( 'NONE', ( #136, #70 ), #111, .F. ) ;
#82 = DIRECTION ( 'NONE',  ( 0.0000000000000000000, 0.0000000000000000000, 1.000000000000000000 ) ) ;
#83 = CARTESIAN_POINT ( 'NONE',  ( -40.00000000000000000, -5.827942386483759600E-016, 1.424805383116280200E-015 ) ) ;
#84 = UNCERTAINTY_MEASURE_WITH_UNIT (LENGTH_MEASURE( 1.000000000000000100E-005 ), #18, 'distance_accuracy_value', 'NONE');
#85 = EDGE_LOOP ( 'NONE', ( #157 ) ) ;
#86 = DIRECTION ( 'NONE',  ( 1.000000000000000000, -0.0000000000000000000, -0.0000000000000000000 ) ) ;
#87 = DIRECTION ( 'NONE',  ( 0.0000000000000000000, 0.0000000000000000000, 1.000000000000000000 ) ) ;
#88 = VERTEX_POINT ( 'NONE', #133 ) ;
#89 = VERTEX_POINT ( 'NONE', #94 ) ;
#90 = CARTESIAN_POINT ( 'NONE',  ( -2.616336506010520100, -75.00000000000000000, 37.50000000000000000 ) ) ;
#91 = EDGE_LOOP ( 'NONE', ( #257 ) ) ;
#92 = AXIS2_PLACEMENT_3D ( 'NONE', #258, #86, #240 ) ;
#93 = CARTESIAN_POINT ( 'NONE',  ( -3.099299419155041600, -74.25881904510259800, 37.12940952255129900 ) ) ;
#94 = CARTESIAN_POINT ( 'NONE',  ( -40.00000000000000000, 0.0000000000000000000, 25.39999999999999900 ) ) ;
#95 = CARTESIAN_POINT ( 'NONE',  ( 0.0000000000000000000, 0.0000000000000000000, 37.50000000000000000 ) ) ;
#96 = EDGE_CURVE ( 'NONE', #89, #89, #41, .T. ) ;
#97 =( GEOMETRIC_REPRESENTATION_CONTEXT ( 3 ) GLOBAL_UNCERTAINTY_ASSIGNED_CONTEXT ( ( #51 ) ) GLOBAL_UNIT_ASSIGNED_CONTEXT ( ( #155, #215, #72 ) ) REPRESENTATION_CONTEXT ( 'NONE', 'WORKASPACE' ) );
#98 = ADVANCED_FACE ( 'NONE', ( #13, #62 ), #223, .T. ) ;
#99 = SHAPE_DEFINITION_REPRESENTATION ( #214, #208 ) ;
#100 = SURFACE_STYLE_FILL_AREA ( #197 ) ;
#101 = FILL_AREA_STYLE_COLOUR ( '', #33 ) ;
#102 = CIRCLE ( 'NONE', #226, 26.20000000000000300 ) ;
#103 = FACE_OUTER_BOUND ( 'NONE', #229, .T. ) ;
#104 = DIRECTION ( 'NONE',  ( 1.000000000000000000, -0.0000000000000000000, 0.0000000000000000000 ) ) ;
#105 = DIRECTION ( 'NONE',  ( -1.000000000000000000, -0.0000000000000000000, -0.0000000000000000000 ) ) ;
#106 = EDGE_CURVE ( 'NONE', #28, #28, #102, .T. ) ;
#107 = ORIENTED_EDGE ( 'NONE', *, *, #96, .F. ) ;
#108 = CARTESIAN_POINT ( 'NONE',  ( -2.851678778707473800, -75.00000000000000000, 37.50000000000000000 ) ) ;
#109 = CONICAL_SURFACE ( 'NONE', #120, 37.12940952255777200, 1.308996939000000000 ) ;
#110 = CLOSED_SHELL ( 'NONE', ( #20, #142, #198, #67, #81, #181, #98, #235, #119 ) ) ;
#111 = CYLINDRICAL_SURFACE ( 'NONE', #39, 26.20000000000000300 ) ;
#112 = EDGE_LOOP ( 'NONE', ( #43 ) ) ;
#113 = CARTESIAN_POINT ( 'NONE',  ( -2.616336506010520100, 0.0000000000000000000, 37.50000000000000000 ) ) ;
#114 = CARTESIAN_POINT ( 'NONE',  ( -2.540000000000000000, 0.0000000000000000000, 26.20000000000000300 ) ) ;
#115 = AXIS2_PLACEMENT_3D ( 'NONE', #256, #143, #1 ) ;
#116 = CARTESIAN_POINT ( 'NONE',  ( -2.616336506010520100, 0.0000000000000000000, -37.50000000000000000 ) ) ;
#117 = CYLINDRICAL_SURFACE ( 'NONE', #7, 37.50000000000000000 ) ;
#118 = STYLED_ITEM ( 'NONE', ( #64 ), #208 ) ;
#119 = ADVANCED_FACE ( 'NONE', ( #2, #203 ), #117, .T. ) ;
#120 = AXIS2_PLACEMENT_3D ( 'NONE', #169, #44, #4 ) ;
#121 = FACE_OUTER_BOUND ( 'NONE', #85, .T. ) ;
#122 = EDGE_CURVE ( 'NONE', #252, #252, #212, .T. ) ;
#123 = DIRECTION ( 'NONE',  ( 0.0000000000000000000, 1.000000000000000000, 0.0000000000000000000 ) ) ;
#124 = EDGE_LOOP ( 'NONE', ( #14 ) ) ;
#125 = DIRECTION ( 'NONE',  ( 0.0000000000000000000, 0.0000000000000000000, 1.000000000000000000 ) ) ;
#126 = PLANE ( 'NONE',  #21 ) ;
#127 = CARTESIAN_POINT ( 'NONE',  ( -2.851678778707473300, 0.0000000000000000000, 37.50000000000000000 ) ) ;
#128 = AXIS2_PLACEMENT_3D ( 'NONE', #199, #182, #82 ) ;
#129 = VERTEX_POINT ( 'NONE', #132 ) ;
#130 = ORIENTED_EDGE ( 'NONE', *, *, #106, .F. ) ;
#131 = CARTESIAN_POINT ( 'NONE',  ( -3.099299419155042500, 0.0000000000000000000, -37.12940952255130600 ) ) ;
#132 = CARTESIAN_POINT ( 'NONE',  ( -40.00000000000000000, 0.0000000000000000000, 23.80000000000000100 ) ) ;
#133 = CARTESIAN_POINT ( 'NONE',  ( -6.242185228416580000, 0.0000000000000000000, 25.39999999999999900 ) ) ;
#134 = FACE_OUTER_BOUND ( 'NONE', #161, .T. ) ;
#135 = FILL_AREA_STYLE ('',( #150 ) ) ;
#136 = FACE_OUTER_BOUND ( 'NONE', #6, .T. ) ;
#137 = EDGE_LOOP ( 'NONE', ( #17 ) ) ;
#138 = SURFACE_STYLE_FILL_AREA ( #135 ) ;
#139 = PRODUCT_DEFINITION_FORMATION_WITH_SPECIFIED_SOURCE ( 'ANY', '', #254, .NOT_KNOWN. ) ;
#140 = CIRCLE ( 'NONE', #249, 25.39999999999999900 ) ;
#141 = ORIENTED_EDGE ( 'NONE', *, *, #255, .T. ) ;
#142 = ADVANCED_FACE ( 'NONE', ( #160, #156 ), #201, .F. ) ;
#143 = DIRECTION ( 'NONE',  ( -1.000000000000000000, 0.0000000000000000000, 0.0000000000000000000 ) ) ;
#144 = DIRECTION ( 'NONE',  ( 0.0000000000000000000, 0.0000000000000000000, 1.000000000000000000 ) ) ;
#145 = CARTESIAN_POINT ( 'NONE',  ( -2.540000000000000000, 0.0000000000000000000, 2.673812178138389900E-016 ) ) ;
#146 = CARTESIAN_POINT ( 'NONE',  ( -3.099299419155041600, 74.25881904510259800, 37.12940952255129900 ) ) ;
#147 = CARTESIAN_POINT ( 'NONE',  ( -3.038388356863338700, -74.71346540353367500, -37.35673270176683800 ) ) ;
#148 = EDGE_CURVE ( 'NONE', #129, #129, #163, .T. ) ;
#149 = MECHANICAL_DESIGN_GEOMETRIC_PRESENTATION_REPRESENTATION (  '', ( #118 ), #31 ) ;
#150 = FILL_AREA_STYLE_COLOUR ( '', #46 ) ;
#151 = CIRCLE ( 'NONE', #209, 26.20000000000000300 ) ;
#152 = EDGE_LOOP ( 'NONE', ( #204 ) ) ;
#153 = DIRECTION ( 'NONE',  ( -1.000000000000000000, 0.0000000000000000000, 0.0000000000000000000 ) ) ;
#154 = EDGE_LOOP ( 'NONE', ( #186 ) ) ;
#155 =( LENGTH_UNIT ( ) NAMED_UNIT ( * ) SI_UNIT ( .MILLI., .METRE. ) );
#156 = FACE_OUTER_BOUND ( 'NONE', #19, .T. ) ;
#157 = ORIENTED_EDGE ( 'NONE', *, *, #96, .T. ) ;
#158 = SURFACE_STYLE_USAGE ( .BOTH. , #248 ) ;
#159 =( NAMED_UNIT ( * ) PLANE_ANGLE_UNIT ( ) SI_UNIT ( $, .RADIAN. ) );
#160 = FACE_BOUND ( 'NONE', #217, .T. ) ;
#161 = EDGE_LOOP ( 'NONE', ( #141 ) ) ;
#162 = AXIS2_PLACEMENT_3D ( 'NONE', #83, #104, #25 ) ;
#163 = CIRCLE ( 'NONE', #23, 23.80000000000000100 ) ;
#164 = ORIENTED_EDGE ( 'NONE', *, *, #148, .T. ) ;
#165 = CARTESIAN_POINT ( 'NONE',  ( 0.0000000000000000000, 0.0000000000000000000, 0.0000000000000000000 ) ) ;
#166 = DIRECTION ( 'NONE',  ( 0.0000000000000000000, 0.0000000000000000000, 1.000000000000000000 ) ) ;
#167 = DIRECTION ( 'NONE',  ( 1.000000000000000000, -0.0000000000000000000, -0.0000000000000000000 ) ) ;
#168 = ORIENTED_EDGE ( 'NONE', *, *, #106, .T. ) ;
#169 = CARTESIAN_POINT ( 'NONE',  ( -3.099299419179195600, 0.0000000000000000000, 0.0000000000000000000 ) ) ;
#170 = CARTESIAN_POINT ( 'NONE',  ( -2.616336506010520100, 75.00000000000000000, 37.50000000000000000 ) ) ;
#171 = CARTESIAN_POINT ( 'NONE',  ( -2.851678778707473800, -75.00000000000000000, -37.50000000000000000 ) ) ;
#172 = FACE_BOUND ( 'NONE', #137, .T. ) ;
#173 = ORIENTED_EDGE ( 'NONE', *, *, #148, .F. ) ;
#174 = PRESENTATION_STYLE_ASSIGNMENT (( #63 ) ) ;
#175 = CARTESIAN_POINT ( 'NONE',  ( -2.616336506010520100, 0.0000000000000000000, 37.50000000000000000 ) ) ;
#176 = CARTESIAN_POINT ( 'NONE',  ( -3.038388356863339200, 0.0000000000000000000, 37.35673270176684500 ) ) ;
#177 = CARTESIAN_POINT ( 'NONE',  ( -3.099299419155041600, -74.25881904510259800, -37.12940952255129900 ) ) ;
#178 = FACE_OUTER_BOUND ( 'NONE', #241, .T. ) ;
#179 = EDGE_LOOP ( 'NONE', ( #222 ) ) ;
#180 =( NAMED_UNIT ( * ) SI_UNIT ( $, .STERADIAN. ) SOLID_ANGLE_UNIT ( ) );
#181 = ADVANCED_FACE ( 'NONE', ( #11, #172 ), #109, .T. ) ;
#182 = DIRECTION ( 'NONE',  ( -1.000000000000000000, 0.0000000000000000000, 0.0000000000000000000 ) ) ;
#183 = PRODUCT_DEFINITION_CONTEXT ( 'detailed design', #58, 'design' ) ;
#184 = CARTESIAN_POINT ( 'NONE',  ( 0.0000000000000000000, 0.0000000000000000000, 0.0000000000000000000 ) ) ;
#185 = CARTESIAN_POINT ( 'NONE',  ( 0.0000000000000000000, 0.0000000000000000000, 0.0000000000000000000 ) ) ;
#186 = ORIENTED_EDGE ( 'NONE', *, *, #207, .F. ) ;
#187 = CARTESIAN_POINT ( 'NONE',  ( -3.099299419179194700, 0.0000000000000000000, 0.0000000000000000000 ) ) ;
#188 = EDGE_LOOP ( 'NONE', ( #168 ) ) ;
#189 = DIRECTION ( 'NONE',  ( 1.000000000000000000, -0.0000000000000000000, -0.0000000000000000000 ) ) ;
#190 = CIRCLE ( 'NONE', #77, 37.50000000000000000 ) ;
#191 = DIRECTION ( 'NONE',  ( -1.000000000000000000, 0.0000000000000000000, 0.0000000000000000000 ) ) ;
#192 = AXIS2_PLACEMENT_3D ( 'NONE', #9, #153, #76 ) ;
#193 = DIRECTION ( 'NONE',  ( 0.0000000000000000000, 0.0000000000000000000, 1.000000000000000000 ) ) ;
#194 = STYLED_ITEM ( 'NONE', ( #174 ), #36 ) ;
#195 = CARTESIAN_POINT ( 'NONE',  ( -2.851678778707473300, 0.0000000000000000000, -37.50000000000000000 ) ) ;
#196 = FACE_OUTER_BOUND ( 'NONE', #91, .T. ) ;
#197 = FILL_AREA_STYLE ('',( #101 ) ) ;
#198 = ADVANCED_FACE ( 'NONE', ( #244, #196 ), #126, .T. ) ;
#199 = CARTESIAN_POINT ( 'NONE',  ( 0.0000000000000000000, 0.0000000000000000000, 0.0000000000000000000 ) ) ;
#200 = PRESENTATION_LAYER_ASSIGNMENT (  '', '', ( #194 ) ) ;
#201 = PLANE ( 'NONE',  #162 ) ;
#202 = DIRECTION ( 'NONE',  ( 1.000000000000000000, -0.0000000000000000000, 0.0000000000000000000 ) ) ;
#203 = FACE_OUTER_BOUND ( 'NONE', #210, .T. ) ;
#204 = ORIENTED_EDGE ( 'NONE', *, *, #234, .T. ) ;
#205 = CARTESIAN_POINT ( 'NONE',  ( -3.099299419155042500, 0.0000000000000000000, 37.12940952255130600 ) ) ;
#206 = CARTESIAN_POINT ( 'NONE',  ( -2.616336506010520100, 75.00000000000000000, -37.50000000000000000 ) ) ;
#207 = EDGE_CURVE ( 'NONE', #32, #32, #151, .T. ) ;
#208 = ADVANCED_BREP_SHAPE_REPRESENTATION ( 'BT1KF505140 FULLVAC', ( #36, #42 ), #97 ) ;
#209 = AXIS2_PLACEMENT_3D ( 'NONE', #34, #5, #233 ) ;
#210 = EDGE_LOOP ( 'NONE', ( #71 ) ) ;
#211 = CARTESIAN_POINT ( 'NONE',  ( -2.540000000000000000, 0.0000000000000000000, 23.80000000000000100 ) ) ;
#212 = CIRCLE ( 'NONE', #75, 37.12940952255777200 ) ;
#213 = CARTESIAN_POINT ( 'NONE',  ( -3.099299419155042500, 0.0000000000000000000, 37.12940952255130600 ) ) ;
#214 = PRODUCT_DEFINITION_SHAPE ( 'NONE', 'NONE',  #10 ) ;
#215 =( NAMED_UNIT ( * ) PLANE_ANGLE_UNIT ( ) SI_UNIT ( $, .RADIAN. ) );
#216 =( BOUNDED_SURFACE ( )  B_SPLINE_SURFACE ( 3, 3, ( 
 ( #205, #146, #29, #131, #177, #93, #213 ),
 ( #69, #50, #230, #231, #147, #35, #176 ),
 ( #242, #54, #245, #195, #171, #108, #127 ),
 ( #175, #170, #206, #116, #48, #90, #113 ) ),
 .UNSPECIFIED., .F., .T., .F. ) 
 B_SPLINE_SURFACE_WITH_KNOTS ( ( 4, 4 ),
 ( 4, 3, 4 ),
 ( 0.0000000000000000000, 1.000000000000000000 ),
 ( 0.0000000000000000000, 0.5000000000000000000, 1.000000000000000000 ),
 .UNSPECIFIED. ) 
 GEOMETRIC_REPRESENTATION_ITEM ( )  RATIONAL_B_SPLINE_SURFACE ( (
 ( 1.000000000000000000, 0.3333333333333333100, 0.3333333333333333100, 1.000000000000000000, 0.3333333333333333100, 0.3333333333333333100, 1.000000000000000000),
 ( 0.8622355601941755800, 0.2874118533980585300, 0.2874118533980585300, 0.8622355601941755800, 0.2874118533980585300, 0.2874118533980585300, 0.8622355601941755800),
 ( 0.8622355601941755800, 0.2874118533980585300, 0.2874118533980585300, 0.8622355601941755800, 0.2874118533980585300, 0.2874118533980585300, 0.8622355601941755800),
 ( 1.000000000000000000, 0.3333333333333333100, 0.3333333333333333100, 1.000000000000000000, 0.3333333333333333100, 0.3333333333333333100, 1.000000000000000000) ) ) 
 REPRESENTATION_ITEM ( '' )  SURFACE ( )  );
#217 = EDGE_LOOP ( 'NONE', ( #164 ) ) ;
#218 = AXIS2_PLACEMENT_3D ( 'NONE', #184, #167, #125 ) ;
#219 = CYLINDRICAL_SURFACE ( 'NONE', #115, 25.39999999999999900 ) ;
#220 = PRESENTATION_LAYER_ASSIGNMENT (  '', '', ( #118 ) ) ;
#221 = DIRECTION ( 'NONE',  ( 1.000000000000000000, -0.0000000000000000000, 0.0000000000000000000 ) ) ;
#222 = ORIENTED_EDGE ( 'NONE', *, *, #38, .T. ) ;
#223 = PLANE ( 'NONE',  #56 ) ;
#224 = VERTEX_POINT ( 'NONE', #211 ) ;
#225 = EDGE_LOOP ( 'NONE', ( #238 ) ) ;
#226 = AXIS2_PLACEMENT_3D ( 'NONE', #185, #22, #237 ) ;
#227 = UNCERTAINTY_MEASURE_WITH_UNIT (LENGTH_MEASURE( 1.000000000000000100E-005 ), #80, 'distance_accuracy_value', 'NONE');
#228 = CYLINDRICAL_SURFACE ( 'NONE', #128, 23.80000000000000100 ) ;
#229 = EDGE_LOOP ( 'NONE', ( #52 ) ) ;
#230 = CARTESIAN_POINT ( 'NONE',  ( -3.038388356863338700, 74.71346540353367500, -37.35673270176683800 ) ) ;
#231 = CARTESIAN_POINT ( 'NONE',  ( -3.038388356863339200, 0.0000000000000000000, -37.35673270176684500 ) ) ;
#232 = CARTESIAN_POINT ( 'NONE',  ( 0.0000000000000000000, 0.0000000000000000000, 0.0000000000000000000 ) ) ;
#233 = DIRECTION ( 'NONE',  ( 0.0000000000000000000, 0.0000000000000000000, 1.000000000000000000 ) ) ;
#234 = EDGE_CURVE ( 'NONE', #61, #61, #190, .T. ) ;
#235 = ADVANCED_FACE ( 'NONE', ( #65, #253 ), #216, .T. ) ;
#236 = SURFACE_SIDE_STYLE ('',( #100 ) ) ;
#237 = DIRECTION ( 'NONE',  ( 0.0000000000000000000, 0.0000000000000000000, 1.000000000000000000 ) ) ;
#238 = ORIENTED_EDGE ( 'NONE', *, *, #122, .F. ) ;
#239 = CARTESIAN_POINT ( 'NONE',  ( -40.00000000000000000, 0.0000000000000000000, 0.0000000000000000000 ) ) ;
#240 = DIRECTION ( 'NONE',  ( 0.0000000000000000000, 0.0000000000000000000, 1.000000000000000000 ) ) ;
#241 = EDGE_LOOP ( 'NONE', ( #173 ) ) ;
#242 = CARTESIAN_POINT ( 'NONE',  ( -2.851678778707473300, 0.0000000000000000000, 37.50000000000000000 ) ) ;
#243 = EDGE_CURVE ( 'NONE', #224, #224, #250, .T. ) ;
#244 = FACE_BOUND ( 'NONE', #57, .T. ) ;
#245 = CARTESIAN_POINT ( 'NONE',  ( -2.851678778707473800, 75.00000000000000000, -37.50000000000000000 ) ) ;
#246 = CARTESIAN_POINT ( 'NONE',  ( 0.0000000000000000000, 0.0000000000000000000, 26.20000000000000300 ) ) ;
#247 = CARTESIAN_POINT ( 'NONE',  ( -2.616336506010520100, 0.0000000000000000000, 37.50000000000000000 ) ) ;
#248 = SURFACE_SIDE_STYLE ('',( #138 ) ) ;
#249 = AXIS2_PLACEMENT_3D ( 'NONE', #73, #74, #193 ) ;
#250 = CIRCLE ( 'NONE', #192, 23.80000000000000100 ) ;
#251 = APPLICATION_PROTOCOL_DEFINITION ( 'draft international standard', 'automotive_design', 1998, #78 ) ;
#252 = VERTEX_POINT ( 'NONE', #53 ) ;
#253 = FACE_OUTER_BOUND ( 'NONE', #152, .T. ) ;
#254 = PRODUCT ( 'BT1KF505140 FULLVAC', 'BT1KF505140 FULLVAC', '', ( #79 ) ) ;
#255 = EDGE_CURVE ( 'NONE', #88, #88, #140, .T. ) ;
#256 = CARTESIAN_POINT ( 'NONE',  ( 0.0000000000000000000, 0.0000000000000000000, 0.0000000000000000000 ) ) ;
#257 = ORIENTED_EDGE ( 'NONE', *, *, #207, .T. ) ;
#258 = CARTESIAN_POINT ( 'NONE',  ( -40.00000000000000000, 0.0000000000000000000, 0.0000000000000000000 ) ) ;
ENDSEC;
END-ISO-10303-21;
